  0
SECTION
  2
HEADER
  9
$ACADVER
  1
AC1009
  0
ENDSEC
  0
SECTION
  2
TABLES
  0
TABLE
  2
LTYPE
 70
2
  0
LTYPE
  2
CONTINUOUS
 70
0
  3
Solid line
 72
65
 73
0
 40
0.0
  0
LTYPE
  2
CHAINED
 70
0
  3
Chained line
 72
65
 73
4
 40
24.000000
 49
15.000000
 49
-3.000000
 49
3.000000
 49
-3.000000
  0
LTYPE
  2
Dashed
 70
0
  3
Dashed line
 72
65
 73
2
 40
10.000000
 49
5.000000
 49
-5.000000
  0
ENDTAB
  0
TABLE
  2
LAYER
 70
2
  0
ENDTAB
  0
ENDSEC
  0
SECTION
  2
ENTITIES
  0
LINE
  8
0
 10
47.174250
 20
469.999359
 30
0.0
 11
47.176815
 21
485.999359
 31
0.0
  0
ARC
  8
0
 10
43.176815
 20
486.000000
 30
0.000000
 40
4.000000
 50
359.990816
 51
179.990816
  0
LINE
  8
0
 10
39.176815
 20
486.000641
 30
0.0
 11
39.171685
 21
454.000642
 31
0.0
  0
ARC
  8
0
 10
43.171685
 20
454.000001
 30
0.000000
 40
4.000000
 50
179.990816
 51
359.990816
  0
LINE
  8
0
 10
47.171685
 20
453.999359
 30
0.0
 11
47.174250
 21
469.999359
 31
0.0
  0
LINE
  8
0
 10
47.164232
 20
407.499360
 30
0.0
 11
47.166796
 21
423.499360
 31
0.0
  0
ARC
  8
0
 10
43.166796
 20
423.500001
 30
0.000000
 40
4.000000
 50
359.990816
 51
179.990816
  0
LINE
  8
0
 10
39.166796
 20
423.500642
 30
0.0
 11
39.161667
 21
391.500642
 31
0.0
  0
ARC
  8
0
 10
43.161667
 20
391.500001
 30
0.000000
 40
4.000000
 50
179.990816
 51
359.990816
  0
LINE
  8
0
 10
47.161667
 20
391.499360
 30
0.0
 11
47.164232
 21
407.499360
 31
0.0
  0
LINE
  8
0
 10
47.168479
 20
345.000643
 30
0.0
 11
47.165915
 21
361.000643
 31
0.0
  0
ARC
  8
0
 10
43.165915
 20
361.000002
 30
0.000000
 40
4.000000
 50
0.009184
 51
180.009184
  0
LINE
  8
0
 10
39.165915
 20
360.999360
 30
0.0
 11
39.171044
 21
328.999361
 31
0.0
  0
ARC
  8
0
 10
43.171044
 20
329.000002
 30
0.000000
 40
4.000000
 50
180.009184
 51
0.009184
  0
LINE
  8
0
 10
47.171044
 20
329.000643
 30
0.0
 11
47.168479
 21
345.000643
 31
0.0
  0
CIRCLE
  8
0
 10
10.000000
 20
347.456827
 30
0.000000
 40
4.500000
  0
CIRCLE
  8
0
 10
76.356194
 20
347.456827
 30
0.000000
 40
4.500000
  0
LINE
  8
0
 10
39.177857
 20
282.499361
 30
0.0
 11
39.180421
 21
266.499362
 31
0.0
  0
ARC
  8
0
 10
43.180421
 20
266.500003
 30
0.000000
 40
4.000000
 50
180.009184
 51
0.009184
  0
LINE
  8
0
 10
47.180421
 20
266.500644
 30
0.0
 11
47.175292
 21
298.500644
 31
0.0
  0
ARC
  8
0
 10
43.175292
 20
298.500002
 30
0.000000
 40
4.000000
 50
0.009184
 51
180.009184
  0
LINE
  8
0
 10
39.175292
 20
298.499361
 30
0.0
 11
39.177857
 21
282.499361
 31
0.0
  0
LINE
  8
0
 10
39.173609
 20
220.000645
 30
0.0
 11
39.171044
 21
204.000645
 31
0.0
  0
ARC
  8
0
 10
43.171044
 20
204.000004
 30
0.000000
 40
4.000000
 50
179.990816
 51
359.990816
  0
LINE
  8
0
 10
47.171044
 20
203.999362
 30
0.0
 11
47.176173
 21
235.999362
 31
0.0
  0
ARC
  8
0
 10
43.176173
 20
236.000003
 30
0.000000
 40
4.000000
 50
359.990816
 51
179.990816
  0
LINE
  8
0
 10
39.176174
 20
236.000644
 30
0.0
 11
39.173609
 21
220.000645
 31
0.0
  0
LINE
  8
0
 10
39.177857
 20
157.499363
 30
0.0
 11
39.180421
 21
141.499363
 31
0.0
  0
ARC
  8
0
 10
43.180421
 20
141.500004
 30
0.000000
 40
4.000000
 50
180.009184
 51
0.009184
  0
LINE
  8
0
 10
47.180421
 20
141.500646
 30
0.0
 11
47.175292
 21
173.500645
 31
0.0
  0
ARC
  8
0
 10
43.175292
 20
173.500004
 30
0.000000
 40
4.000000
 50
0.009184
 51
180.009184
  0
LINE
  8
0
 10
39.175292
 20
173.499363
 30
0.0
 11
39.177857
 21
157.499363
 31
0.0
  0
LINE
  8
0
 10
39.173609
 20
95.000646
 30
0.0
 11
39.171044
 21
79.000646
 31
0.0
  0
ARC
  8
0
 10
43.171044
 20
79.000005
 30
0.000000
 40
4.000000
 50
179.990816
 51
359.990816
  0
LINE
  8
0
 10
47.171044
 20
78.999364
 30
0.0
 11
47.176173
 21
110.999364
 31
0.0
  0
ARC
  8
0
 10
43.176173
 20
111.000005
 30
0.000000
 40
4.000000
 50
359.990816
 51
179.990816
  0
LINE
  8
0
 10
39.176174
 20
111.000646
 30
0.0
 11
39.173609
 21
95.000646
 31
0.0
  0
LINE
  8
0
 10
39.177857
 20
32.499365
 30
0.0
 11
39.180421
 21
16.499365
 31
0.0
  0
ARC
  8
0
 10
43.180421
 20
16.500006
 30
0.000000
 40
4.000000
 50
180.009184
 51
0.009184
  0
LINE
  8
0
 10
47.180421
 20
16.500647
 30
0.0
 11
47.175292
 21
48.500647
 31
0.0
  0
ARC
  8
0
 10
43.175292
 20
48.500006
 30
0.000000
 40
4.000000
 50
0.009184
 51
180.009184
  0
LINE
  8
0
 10
39.175292
 20
48.499364
 30
0.0
 11
39.177857
 21
32.499365
 31
0.0
  0
CIRCLE
  8
0
 10
10.000000
 20
9.000000
 30
0.000000
 40
4.500000
  0
CIRCLE
  8
0
 10
76.356194
 20
9.000000
 30
0.000000
 40
4.500000
  0
LINE
  8
0
 10
0.000000
 20
0.000000
 30
0.0
 11
0.000000
 21
495.000000
 31
0.0
  0
ARC
  8
0
 10
5.000000
 20
495.000000
 30
0.000000
 40
5.000000
 50
90.000000
 51
180.000000
  0
LINE
  8
0
 10
5.000000
 20
500.000000
 30
0.0
 11
18.500000
 21
500.000000
 31
0.0
  0
LINE
  8
0
 10
18.500000
 20
500.000000
 30
0.0
 11
19.678097
 21
500.000000
 31
0.0
  0
LINE
  8
0
 10
19.678097
 20
500.000000
 30
0.0
 11
66.678097
 21
500.000000
 31
0.0
  0
LINE
  8
0
 10
66.678097
 20
500.000000
 30
0.0
 11
67.856194
 21
500.000000
 31
0.0
  0
LINE
  8
0
 10
67.856194
 20
500.000000
 30
0.0
 11
81.356194
 21
500.000000
 31
0.0
  0
ARC
  8
0
 10
81.356194
 20
495.000000
 30
0.000000
 40
5.000000
 50
0.000000
 51
90.000000
  0
LINE
  8
0
 10
86.356194
 20
495.000000
 30
0.0
 11
86.356194
 21
0.000000
 31
0.0
  0
LINE
  8
0
 10
86.356194
 20
0.000000
 30
0.0
 11
67.856194
 21
0.000000
 31
0.0
  0
LINE
  8
0
 10
67.856194
 20
0.000000
 30
0.0
 11
66.678097
 21
0.000000
 31
0.0
  0
LINE
  8
0
 10
66.678097
 20
0.000000
 30
0.0
 11
19.678097
 21
0.000000
 31
0.0
  0
LINE
  8
0
 10
19.678097
 20
0.000000
 30
0.0
 11
18.500000
 21
0.000000
 31
0.0
  0
LINE
  8
0
 10
18.500000
 20
0.000000
 30
0.0
 11
0.000000
 21
0.000000
 31
0.0
  0
ENDSEC
  0
EOF
